Led Zeppelin - Moby Dick (var.7) Bass tab download free or play online

Bass tab for Moby Dick (var.7) by Led Zeppelin free download and read or play online: file .txt, 3.52 kb has 296 views and 0 downloads.

Download bass tab "Moby Dick (var.7)" (Led Zeppelin)

Led Zeppelin Band name
Moby Dick Song name
Bass tabs Tab type
3.52 kb File size
.TXT File type
296 views
0 downloads
 
Are you robot?

Moby Dick (var.7) bass tab read and play online

                    Riff 1:                          x4   Riff 2:                        x2

-|-----7----7--5--------------------|-----------------------------------|
-|----------------7--3--5--3--5--3--|-----5----5--3---------------------|
-|--5-------------------------------|----------------5--1--3--1--3--1---|
-|----------------------------------|--3--------------------------------|

Riff 1:                          x2   Riff 3:

-|-----7----7--5--------------------|-------------------------------------|
-|----------------7--3--5--3--5--3--|-----7----7--5-----7---7------5--7---|
-|--5-------------------------------|----------------7----------7---------|
-|----------------------------------|--5----------------------------------|

                              x1
-|------------------5h7-5---------|
-|--5-5-5-5--5------------7-5-----|
-|-------------8-5------------8---|
-|--------------------------------|

Riff 1:                          x3

-|-----7----7--5--------------------|--------------------|
-|----------------7--3--5--3--5--3--|--------------------|
-|--5-------------------------------|----Guitar-Solo-----|
-|----------------------------------|--------------------|

Riff 1:                          x1

-|-----7----7--5--------------------|--------------------|
-|----------------7--3--5--3--5--3--|--------------------|
-|--5-------------------------------|----Guitar-Solo-----|
-|----------------------------------|--------------------|

Riff 2:                           x1

-|----------------------------------|--------------------|
-|-----5----5--3--------------------|--------------------|
-|----------------5--1--3--1--3--1--|----Guitar-Solo-----|
-|--3-------------------------------|--------------------|

Riff 1:                          x1

-|-----7----7--5--------------------|--------------------|
-|----------------7--3--5--3--5--3--|--------------------|
-|--5-------------------------------|----Guitar-Solo-----|
-|----------------------------------|--------------------|

Riff 3:
                                                                   x1
-|------------------------------------|------------------5h7-5---------|
-|-----7----7--5-----7---7------5--7--|--5-5-5-5--5------------7-5-----|
-|----------------7----------7--------|-------------8-5------------8---|
-|--5---------------------------------|--------------------------------|

                     Riff 1:                       x1

-|-----------------|-----7----7--5--------------------|------------------|
-|-----------------|----------------7--3--5--3--5--3--|------------------|
-|----Drum-Solo----|--5-------------------------------|----Drum-Fill-----|
-|-----------------|----------------------------------|------------------|

Riff 2:                          x1

-|----------------------------------|------------------|
-|-----5----5--3--------------------|------------------|
-|----------------5--1--3--1--3--1--|----Drum-Fill-----|
-|--3-------------------------------|------------------|

Riff 3:
                                                                   x1
-|------------------------------------|------------------5h7-5---------|
-|-----7----7--5-----7---7------5--7--|--5-5-5-5--5------------7-5-----|
-|----------------7----------7--------|-------------8-5------------8---|
-|--5---------------------------------|--------------------------------|

Outro:

-|-----------|-----------|------------|
-|-----------|-----------|------------|
-|--5--------|--3--------|--0---------|
-|-----------|-----------|------------|                    

Comments for bass tab — Moby Dick (var.7) (Led Zeppelin)

Other Moby Dick (var.7) by Led Zeppelin tabs:

Last viewed Led Zeppelin tabs: