Led Zeppelin - Moby Dick (var.24) Bass tab download free or play online

Bass tab for Moby Dick (var.24) by Led Zeppelin free download and read or play online: file .txt, 2.77 kb has 560 views and 1 downloads.

Download bass tab "Moby Dick (var.24)" (Led Zeppelin)

Led Zeppelin Band name
Moby Dick Song name
Bass tabs Tab type
2.77 kb File size
.TXT File type
560 views
1 downloads
 
Are you robot?

Moby Dick (var.24) bass tab read and play online

                    Name = Moby Dick
Band = Led Zeppelin
Tabber = Ben Sibbons

all the tabs on here just seem a bit off
so I decided to really listen to the song
and worked out that it sounds much better in
drop D tuning (mainly as that is how it is played)
aswell as being easier to play
so I decided to tab this.


enjoy it people =)

Tuning - Drop D - D A D G

Intro

G:--------------------
D:--------------------
A:---5-5p3------------ 
D:-0-------53-53-5-3--   x4

G:--------------------
D:---5-5p3------------
A:---------51-31-3-1--
D:-5------------------   x2

G:--------------------
D:--------------------
A:---5-5p3------------ 
D:-0-------53-53-5-3--   x2

G:-------------------------------5/7-7-5------
D:---7-7p5---7-7--5-7--2/55555-3--------75-3--
A:-0------7------7--------------5-------------
D:-------------------------------------------- x1

G:--------------------
D:--------------------
A:---5-5p3------------ 
D:-0-------53-53-5-3--   x2

G:----------------------
D:----------------------
A:---5-5p3--------------
D:-0-------53-53-5-3-0--   x1

Guitar solo

G:--------------------
D:--------------------
A:---5-5p3------------ 
D:-0-------53-53-5-3--   x1

Guitar solo

G:--------------------
D:---5-5p3------------
A:---------51-31-3-1--
D:-5------------------   x1

Guitar solo

G:--------------------
D:--------------------
A:---5-5p3------------ 
D:-0-------53-53-5-3--   x1

play this at the end of the 4th guitar solo (you will hear it)

G:----------
D:----------
A:----------
D:-0h2-3-4--

G:-------------------------------5/7-7-5------
D:---7-7p5---7-7--5-7--2/55555-3--------75-3--
A:-0------7------7--------------5-------------
D:-------------------------------------------- x1

finish on

G:----
D:----
A:-5--
D:-0--


Drum solo


G:----------------------
D:----------------------
A:---5-5p3--------------
D:-0-------53-53-5-3-0--   x1

Drum fill

G:----------------------
D:---5-5p3--------------
A:---------51-31-3-1----
D:-5-----------------5--   x1

drum fill

G:-------------------------------5/7-7-5------
D:---7-7p5---7-7--5-7--2/55555-3--------75-3--
A:-0------7------7--------------5-------------
D:-------------------------------------------- x1

Finish on

G:-----------------
D:-----------------
A:-5~~~-3~~~-0~~~--
D:-----------------


p = pull off
h = hammer on
/ = slide up
\ = slide down
~ = hold note


thanks =) I personally think it is 100% correct =) (it is ;))                    

Comments for bass tab — Moby Dick (var.24) (Led Zeppelin)

Other Moby Dick (var.24) by Led Zeppelin tabs:

Last viewed Led Zeppelin tabs: