Led Zeppelin - Stairway To Heaven (var.32) Guitar tab download free or play online

Guitar tab for Stairway To Heaven (var.32) by Led Zeppelin free download and read or play online: file .txt, 4.39 kb has 820 views and 0 downloads.

Download guitar tab "Stairway To Heaven (var.32)" (Led Zeppelin)

Led Zeppelin Band name
Stairway To Heaven Song name
Guitar tabs Tab type
4.39 kb File size
.TXT File type
820 views
0 downloads
 
Are you robot?

Stairway To Heaven (var.32) guitar tab read and play online

                    Stairway to Heaven Solo (studio version)


h=hammer on
p=pull off
b=bend

    D       D         D               C             ?
 
e-0-2-3----0-2-3----0-2-3-3-2-------------------------------------------------5----------------------
B-3-3-3----3-3-3----3-3-3-3-3---------1-1-1-1-------1-1-1-1---------------------8-5------------------
G-2-2-2----2-2-2----2-2-2-2-2---------0-0-0-0-------0-0-0-0---4p2p0----7b-----------7-5---7-5--------
D-0-0-0----0-0-0----0-0-0-0-0---------2-2-2-2-------0-0-0-0-----------------------------7-----7-5----
A------------------------------0h3-3--3-3-3-3--2-2--2-2-2-2---------------------------------------8--
E----------------------------------------------------------------------------------------------------


e-------8-8--10b--8----------8--10-8------------------------5----------------------------------------
B--8h10-------------10--8h10---------10-8---8h10--------------8-5------------------------------------
G-----------------------------------------9---------7b------------7-5---7-5---------------5---5-5----
D---------------------------------------------------------------------7-----7-5---5-7-------7-----5--
A-------------------------------------------------------------------------------7--------------------
E----------------------------------------------------------------------------------------------------
                              This part may not seem right
                              listen to the song for timing

                                {                   }
e--5-------------------------------------------------------------------------------------------------
B----8-5---------------------------------6-----------------------------13-----15b-15-13-15-13-13-----
G--------7-5---7-5---------------------5---7p5---5---------12----12h14-------------------------------
D------------7-----7-5-7-5---------5h7---------7------12-----14-------------------------------------
A---------------------------8------------------------------------------------------------------------
E----------------------------------------------------------------------------------------------------
                            For this bending part do it 10x from the bend
                           and make sure that the bend on the 
                            15th fret is brought back down 
                                  before pulling off
                             {                             }
e--15b-15-13-------------------------------------------------15b---------12h15p12--------------------
B------------15b-15-13----13--15b-15p13----13-15b-15p13-----------------------------15-13---13-15----
G----------------------14---------------14--------------14--------------------------------14---------
D----------------------------------------------------------------------------------------------------
A----------------------------------------------------------------------------------------------------
E----------------------------------------------------------------------------------------------------

 Unison bend
  {      }
e------15---------------------------17---------------------------------------------------------------
B--15b-----15p13-14~~~-----------20----20p17---------------------------------------------------------
G----------------------------19b-------------19p17-19p17----17-19b~~~~-----10b---10b--10-8-10-8-10~~-
D--------------------------------------------------------19------------------------------------------
A----------------------------------------------------------------------------------------------------
E----------------------------------------------------------------------------------------------------



                                         {   5x              }
e--------------------------------------------20p17----20p17------20b~~~~~~----------------------------
B--6b~~----6p5-6p5---5--------------------17-------17-------------------------------------------------
G------------------7---7p5-7p5------------------------------------------------------------------------
D------------------------------7~~--------------------------------------------------------------------
A-----------------------------------------------------------------------------------------------------
E-----------------------------------------------------------------------------------------------------

Visit www.directTABS.com for more free tablature!                    

Comments for guitar tab — Stairway To Heaven (var.32) (Led Zeppelin)

Other Stairway To Heaven (var.32) by Led Zeppelin tabs:

Last viewed Led Zeppelin tabs: