Led Zeppelin - Stairway To Heaven (var.33) Guitar tab download free or play online

Guitar tab for Stairway To Heaven (var.33) by Led Zeppelin free download and read or play online: file .txt, 4.47 kb has 817 views and 0 downloads.

Download guitar tab "Stairway To Heaven (var.33)" (Led Zeppelin)

Led Zeppelin Band name
Stairway To Heaven Song name
Guitar tabs Tab type
4.47 kb File size
.TXT File type
817 views
0 downloads
 
Are you robot?

Stairway To Heaven (var.33) guitar tab read and play online

                                     Stairway to heaven Guitar solo.
        
           Solo playing by Jimmy page. Song by Led Zeppelin

        This is completely by ear so some of it might be wrong. But it works for me. This is also my first tab.
                                                           Key: 
                                                        ^: bend
				    g^: grad. Bend
				    hb: hold bend
				    ~ : hold note.
	                                           ho: hammer on
                                                       po: pull off        
				  /   : slide (both ways...)
						


         E-----5--------------------------8-8^-8-------8-10-8----------------
         B------8-5--------------------8---------10-10--------10-8-----8-10-
         G-7^------7-5---7-5-----------------------------------------10-------
         D-------------7-------7-5---------------------------------------------
         A--------------------------8~-----------------------------------------
         E----------------------------------------------------------------------

         E-----5--------------------------------------------5-------------------------------
         B------8-5------------------------------------------8-5---------------------------
         G-7^-------7-5----7-5-------------5---5-5-0---------7-5--5ho7po5-----------
         D----------------7-----7-5----5-7---7---------------------7-----------7-5-7-5-
         A---------------------------7-----------------------------------------------------8
         E-----------------------------------------------------------------------------------

	E--------------------------------------------------------------15^-13-----------
	B---------6-----------------------------13---15^-13-15-13-------------15-13---
	G------5----75----5---7/9-12-12-14------------------------------------------14
	D-5/7------------7--------------------------------------------------------------
	A--------------------------------------------------------------------------------
	E-------------------------------------------------------------------------------



		(a little faster. Listen to song.)
	E---------------------------------------------------------------------------
	B-15^-13-------15^-13----15^-13----15^-13----15^-13-----15^-13--
	G---------14---------14---------14----------14----------14----------14
	D---------------------------------------------------------------------------
	A---------------------------------------------------------------------------
	E---------------------------------------------------------------------------

									
	E------------------------------------------------------15^-12-15-12-----------
	B-15^-13------15^-13------15^-13----15^-13-------13-----------------15-13----
	G---------14----------14---------14---------14----------------------------14~
	D---------------------------------------------------------------------------------
	A---------------------------------------------------------------------------------
	E---------------------------------------------------------------------------------

	slide riff E-8-7~-8-5~
                        B--------------
                            
                            
                                                      Slide Riff  
             E-------17------------------------|		|E-------------------------------
	B----20---20---------------------|                  |B------------------------------
	G-19--------19-19-17---17-19^|                      |G-14^hold bend-14-12-14--
	D--------------------19---------|		|D------------------------------
	A----------------------------------|                |A-------------------------------
	E----------------------------------|                |E-------------------------------


	Slide Riff...

	


	E--------------------------------| slide riff|E----20-17---20-17---20-17-21^
	B-6g^-6^5-----------5--------|	       |B-17-------17-------17------------
	G----------7-5-7-5-7--7-5----|              |G------------------------------------
	D---------------------------7^-|               |D------------------------------------
	A-------------------------------|               |A------------------------------------
	E--------------------------------|              |E------------------------------------



		Please post and rate. I worked hard on this and I’m only 12 years old. so please post,
                                KBIIRLKL

Visit www.directTABS.com for more free tablature!                    

Comments for guitar tab — Stairway To Heaven (var.33) (Led Zeppelin)

Other Stairway To Heaven (var.33) by Led Zeppelin tabs:

Last viewed Led Zeppelin tabs: