Led Zeppelin - Stairway To Heaven (var.37) Guitar tab download free or play online

Guitar tab for Stairway To Heaven (var.37) by Led Zeppelin free download and read or play online: file .txt, 2.32 kb has 814 views and 0 downloads.

Download guitar tab "Stairway To Heaven (var.37)" (Led Zeppelin)

Led Zeppelin Band name
Stairway To Heaven Song name
Guitar tabs Tab type
2.32 kb File size
.TXT File type
814 views
0 downloads
 
Are you robot?

Stairway To Heaven (var.37) guitar tab read and play online

                    I found an easier way to play this song. 
It sounds just like it, and, like I said, 
it's much easier to play, in my opinion.  
I'm just going to do the intro due to lack of time.  
Enjoy....


SONG:       Stairway To Heaven
ARTIST:     Led Zeppelin
ALBUM:      Led Zeppelin: IV
TUNING:     Normal-EADGBE
TABBED BY:  Michael Malone
E-MAIL:     Anorexorcist419@aol.com



|------0-5-7-0---7-8-0---8-2----2-0-------0--------------------|
|---1----------1-------1-----3------1---1---1----0-1-1---------|
|-2--------1------------------2-------2-------2--0-2-2---------|
|--------------------------4------3----------------------------|
|------------------------------------------------2-0-0--0/8-7--|
|--------------------------------------------------------------|


|-------0-7-0---7-8-0---8-2-----2-0-------0--------------------|
|-----1-------1-------1-----3-------1---1---1----0-1-1---------|
|---2-----1-------0-----------2-------2-------2--0-2-2---------|
|-------------------------4-------3----------------------------|
|-0----------------------------------------------2-0-0--0-2----|
|--------------------------------------------------------------|


|-------2-0-----2-0-----0-------------------3-----3----------2-|
|-----------3-------1-----0-1-------1-----1---0-----------1----|
|-----0-------2-------2-------2-------0---------0-------0----0-|
|---2-----2-------3---------------------2-------------2--------|
|-3-----------------------0-----0-2-3---------------3----------|
|-------------------------------------------3------------------|


|----2-0-----------------------2-------------------------------|
|3-------1-------------1-----3-----0-1-1-----------------------|
|--2-------2---------0-----2-------0-2-2-----------------------|
|------3-----------2-----0-------------------------------------|
|------------0-2-3-----------------2-0-0-----------------------|
|--------------------------------------------------------------|


Well, that's the end of the intro.  The next few measures are 
almost identical to the intro, so you can probably play this a 
few times before you have to change anything.  I hope I helped 
somebody out.  
Knowing the asses that reply, though, I'll probably have pissed 
more people off than not for trying to make this song a little 
bit more simple.  Anyway, have fun with it.                    

Comments for guitar tab — Stairway To Heaven (var.37) (Led Zeppelin)

Other Stairway To Heaven (var.37) by Led Zeppelin tabs:

Last viewed Led Zeppelin tabs: