Led Zeppelin - Stairway To Heaven (var.72) Guitar tab download free or play online

Guitar tab for Stairway To Heaven (var.72) by Led Zeppelin free download and read or play online: file .txt, 4.27 kb has 704 views and 0 downloads.

Download guitar tab "Stairway To Heaven (var.72)" (Led Zeppelin)

Led Zeppelin Band name
Stairway To Heaven Song name
Guitar tabs Tab type
4.27 kb File size
.TXT File type
704 views
0 downloads
 
Are you robot?

Stairway To Heaven (var.72) guitar tab read and play online

                    Song: Led Zeppelin - Stairway to Heaven





Tabbed by: Anders Jьrisoo 2000-12-8

anders_jurisoo2@hotmail.com



This is the picking + melody. The melody is a flute but I have tabbed

it for guitar. though if you have a flute, try it, its sound really 

good I promise. 

Note: this is only the intro, check out other versions if you 

want more. You may notic there are some small changes (the C chord), 

thats just so the melody fit whit the picking. Its not big, just a 

tone or two. Anyway: good luck and enjoy! and dont forget to email me!



Melody (upbeat) (bar 1)

E-------------5-7-|

B-----------------|

G-----------------|





Picking (bar 2-5)

E-------5-7-----7-|-8-----8-2-----2-|-0---------0-----|-----------------|

B-----5-----5-----|---5-------3-----|---1---1-----1---|-0-1-1-----------|

G---5---------5---|-----5-------2---|-----2---------2-|-0-2-2-----------|

D-7-------6-------|-5-------4-------|-3---------------|-----------------|

A-----------------|-----------------|-----------------|-2-0-0---0--/8-7-|

E-----------------|-----------------|-----------------|-----------------|

Melody                                                                    

E-8---7-5-7---5-7-|-8---108-5---8-10|-12--108-7-5---3-|-3-5-5-------5-7-|

B-----------------|-----------------|-----------------|-----------------|

G-----------------|-----------------|-----------------|-----------------|



Picking (bar 6-9)

E-------5-7-----7-|-8-----8-2-----2-|-0---------0-----|-----------------|

B-----5-----5-----|---5-------3-----|---1---1-----1---|-0-1-1-----------|

G---5---------5---|-----5-------2---|-----2---------2-|-0-2-2-----------|

D---------6-------|-5-------4-------|-3---------------|-----------------|

A-0---------------|-----------------|-----------------|-2-0-0-------0-2-|

E-----------------|-----------------|-----------------|-----------------|

Melody                                                          

E-8---7-5-7---5-7-|-8---108-5---8-10|-12--108-7-5---3-|-3-5-5-----------|

B-----------------|-----------------|-----------------|-----------------|

G-----------------|-----------------|-----------------|-----------------|



Picking (bar 10-13) 

E-------0-2-----2-|-0-----0----------|---------3-----3-|-3p2-2-2--------|

B-----1-----3-----|---1-----0h1------|-1-----1---0-----|-----3-3--------|

G---0---------2---|-----2-------2----|---0---------0---|-----2-2--------|

D---------0-------|-3----------------|-----2-----------|-0--------------|

A-3---------------|---------0----0-2-|-3---------------|------------0-2-|

E-----------------|------------------|---------3-------|----------------|

Melody                                                          

E---------8-1210--|-10--8-7-8---55-7-|-8-101210108-7-3-|-3---5-5----5-7-|

B-----------------|------------------|-----------------|----------------|

G-----------------|------------------|-----------------|----------------|



Picking (bar 14-17)                                           Intro end.

E-------0-2-----2-|-0-----0----------|-------0-------2-|-0-0-0----------|

B-----1-----3-----|---1-----0h1------|-----1-------3---|-1-1-1----------|

G---0---------2---|-----2-------2----|---0-------2-----|-2-2-2----------|

D---------0-------|-3----------------|---------0-------|-3-3-3----------|

A-3---------------|---------0----0-2-|-3---------------|----------------|

E-----------------|------------------|-----------------|----------------|

Melody                                                          

E-8---7-5-7---5-7-|-8---108-5----8-10|-12--108-7-5---3?|-3-5-5----------|

B-----------------|------------------|-----------------|----------------|

G-----------------|------------------|-----------------|----------------|



Additional lyrics

There's a lady who's sure

All that glitters is gold

And she's buying a stairway to heaven.

When she gets there she knows

If the stores are all closed

With a world she can get what she came for.

Ooh, ooh, and she's buying a stairway to heaven.

There's a sign on the wall

But she wants to be sure

'Cause you /know sometimes words have two meanings.







---------------------------------------------------------------------



Please send any comments/suggestions to anders_jurisoo2hotmail.com

Bye!                    

Comments for guitar tab — Stairway To Heaven (var.72) (Led Zeppelin)

Other Stairway To Heaven (var.72) by Led Zeppelin tabs:

Last viewed Led Zeppelin tabs: