Led Zeppelin - Stairway To Heaven (var.120) Guitar tab download free or play online

Guitar tab for Stairway To Heaven (var.120) by Led Zeppelin free download and read or play online: file .txt, 10.15 kb has 655 views and 0 downloads.

Download guitar tab "Stairway To Heaven (var.120)" (Led Zeppelin)

Led Zeppelin Band name
Stairway To Heaven Song name
Guitar tabs Tab type
10.15 kb File size
.TXT File type
655 views
0 downloads
 
Are you robot?

Stairway To Heaven (var.120) guitar tab read and play online

                    Led Zeppelin - Stairway to Heaven 
by: L.E.D..M.E.T.A.L.L.I.C.A.

/  = slide 
h  = hammer on 
p  = pull off 
x  = kill the note
^  = bend (one note higher)
^^ = bend (two notes higher)
\/ = hit note again when coming down from orignal bend


E|-------5-|-7------7-|-8-----8-|-2-----2-|-0---------0-----|-0-0-0------------||
B|-----5---|----5-----|----5----|----3----|----1---1-----1--|-0-1-1------------||
G|---5-----|------5---|------5--|------2--|------2---------2|-0-2-2------------||      
D|-7-------|-6--------|-5-------|-4-------|-3---------------|-0-2-2------------||  x2    INTRO
A|---------|----------|---------|---------|-----------------|-x-0-0----0-2/8-7-||
E|---------|----------|---------|---------|-----------------|-3----------------||



     C              D        F        Ami       C           Gsus2      D   
 
E|-----------0-|-2-----2-|-0-----0-|-------|-------------|-3-----3-|-3p2-2-2-|| \
B|-------------|---3-----|---1-----|-0h1---|-----1-----1-|---3-----|-----3-3-||  \
G|---------0---|-----2---|-----2---|-----2-|-------0-----|-----0---|-----2-2-||   \
D|-------2-----|-0-------|-3-------|-------|---------2---|---------|-0---0-0-||    \
A|-0-2-3-------|---------|---------|-0-----|-0-2-3-------|---------|---------||     \
E|-------------|---------|---------|-------|-------------|-3-------|---------||      \   
                                                                                         VERSE
     C              D        F       Ami        C            D         F             /
                                                                                    /      
E|-----------0-|-2-----2-|-0-----0-|-------|-------------|-2-----2-|-0-0-0-||      /
B|-------------|---3-----|---1-----|-0h1---|-----1-----1-|---3-----|-1-1-1-||     /
G|---------0---|-----2---|-----2---|-----2-|-------0-----|-----2---|-2-2-2-||    /
D|-------2-----|-0-------|-3-------|-------|---------2---|-0-------|-3-3-3-||   /
A|-0-2-3-------|---------|---------|-0-----|-0-2-3-------|---------|-------||  /
E|-------------|---------|---------|-------|-------------|---------|-------|| /

back to INTRO (singing comes in) 

then into VERSE 

back to INTRO (2nd time around same notes but different picking pattern)
              (the rhythm guitar is playing what i showed you)

   D    Ami7         Ami   D           D        Ami7        Ami   

E|-2-|---3--3-3-3--3----|-0--2-|--2-2-2-2-2-2-|-3--3-3-3--3----|-7-5-3-5-||
B|-3-|---1--1-1-1--1--1-|-3--3-|--3-3-3-3-3-3-|-1--1-1-1--1--1-|-8-7-5-7-||
G|-2-|---2--2-2-2--2--2-|-2--2-|--2-2-2-2-2-2-|-2--2-2-2--2--2-|-9-7-5-7-||
D|-0-|---2--2-2-2--2--2-|-0--0-|--0-0-0-0-0-0-|-0--0-0-0--0--2-|-0-0-0-0-||  x2    CHORUS
A|---|------------------|------|--------------|----------------|---------||
E|---|------------------|------|--------------|----------------|---------||


    C          G/B         Ami            C          G/B  F Ami

E|---------|---------|---------------|------------|-------0-0--------||
B|-------1-|-------3-|-0h1---------1-|----------1-|-------1-1--------||
G|-----0---|-----0---|-----2-----2---|--------0---|-----0-2-2--------||
D|---2-----|---0-----|---------2-----|------2-----|---0---3-2--------||  x2    BRIDGE
A|-3-------|-2-------|-0-----0-------|0-2-3-------|-2-------0----0-2-||
E|---------|---------|---------------|------------|------------------||

    C          G/B

E|---------|---------||
B|-------1-|-------3-||
G|-----0---|-----0---||
D|---2-----|---0-----||        FILL 
A|-3-------|-2-------||
E|---------|---------||

back to CHORUS 

then into BRIDGE & FILL 

and agian into the CHORUS (drums come in) 

once again into the BRIDGE & FILL 

back to the CHORUS......(kind of repetative ain't it?) 

finally into the BRIDGE & FILL 

  

E|---2-3--|----2-3--|----2-3--3-2--||
B|-3-3-3--|--3-3-3--|--3-3-3--3-3--||      the notes go: Dsus2-D-Dsus4
G|-2-2-2--|--2-2-2--|--2-2-2--2-2--||
D|-0-0-0--|--0-0-0--|--0-0-0--0-0--||        D FILL
A|--------|---------|--------------||
E|--------|---------|--------------||

    Cadd9 (#11)     Cadd9 (#11)

E|---2--2-2--2-0-|---2--2-2--2-0-||
B|---3--3-3--3-3-|---3--3-3--3-3-||
G|---0--0-0--0-0-|---0--0-0--0-0-||
D|---0--0-0--0-0-|---0--0-0--0-0-||
A|-3-------------|-3-------------||
E|---------------|---------------||

play the D FILL again

   Cadd9 (#11)         Gma7/B  

E|---2--2-2--2-0-|---2--2-2--2-0-||
B|---3--3-3--3-3-|---3--3-3--3-3-||
G|---0--0-0--0-0-|---0--0-0--0-0-||
D|---0--0-0--0-0-|---0--0-0--0-0-||
A|-3-------------|-2-------------||
E|---------------|---------------||




****************the following is played during the solo******************

E|-----|-----|---------------------||
B|-----|-----|---------------------||
G|-----|-----|---------------------||
D|-7-7-|-5-5-|-3-x-3-x-3-x-3-x-3-5-||
A|-7-7-|-5-5-|-3-x-3-x-3-x-3-x-3-5-||
E|-5-5-|-3-3-|-1-x-1-x-1-x-1-x-1-3-||

****************the previous is played during the solo*******************




solo: (it's not that hard)


E|----5---------------------|-----8-8-10-8--------8-10p8--------------|
B|------8p5-----------------|-/10----------10--10--------10p8----8h10-|
G|-7^-------7p5---7p5-------|---------------------------------10------|
D|--------------7-----7-5-3-|-----------------------------------------|
A|--------------------------|-----------------------------------------|
E|--------------------------|-----------------------------------------|

E|----5---------------------------------|-5-------------------------|
B|------8p5-----------------------------|---8p5---------------------|
G|-7^-------7p5---7p5-----------5-5-5---|-------7p5---7p5-----------|
D|--------------7-----7p5---5h7-------5-|-----------7-----7p5-7p5/3-|
A|------------------------7-------------|---------------------------|
E|--------------------------------------|---------------------------|

E|-------------------------8-10^-10-8-10-8-|-15^-15-13-12----------|
B|----6-------------8-8/10-----------------|--------------15-13----|
G|------7p5---5-7/9------------------------|--------------------14-|
D|-/7-------7------------------------------|-----------------------|
A|-----------------------------------------|-----------------------|
E|-----------------------------------------|-----------------------|

E||----------------||
B||--13-15^p13-----||
G||*-----------14-*||
D||*--------------*||         x10        _____________
A||----------------||                    |hit middle |
E||----------------||                    | 15 on 1st |
                                         |  string   |
                                         |  while    | 
                                         |15 on 2nd  |
                                         | string is |
                                         |   still   |
                                         |   bent    |
                                         |           |
                                         |    \/     |
E|-15^---12-15p12-----------------------------15------------|
B|----------------15-13----13-15-13----13-15^----15\/p13----|
G|----------------------14----------14-------------------14-|
D|----------------------------------------------------------|
A|----------------------------------------------------------|
E|----------------------------------------------------------|

               _____________ 
               | hit the 3 |                          
               |notes shown|                         
               |  while    |
               |19 on 3rd  |
               | string is |
               |   still   |
               |   bent    |
               |           |
               |   \/ \/ \/|
E|-8/7--8----|--------17-------------------------------|
B|--------10-|-----20----20----------------------------|
G|-----------|-19^-------------19^p17--19-17----17-19^-|
D|-----------|-------------------------------19--------|
A|-----------|-----------------------------------------|
E|-----------|-----------------------------------------|


E|-8/7--8----|--------------------------|
B|--------10-|-10^^---10^^-10-8h10p8-10-|
G|-----------|--------------------------|
D|-----------|--------------------------|
A|-----------|--------------------------|
E|-----------|--------------------------|                   
                   
                                         
E|-8/7--8----|------------------------------|                                          
B|--------10-|-8^----5--------------5-------|                                        
G|-----------|---------8-7-5--7-5-7---7-5---|                                  
D|-----------|----------------------------7-|                                        
A|-----------|------------------------------|                                       
E|-----------|------------------------------|

E|-8/7--8----|----20p17----20p17----20p17----20p17----20p17----20^-||
B|--------10-|-17-------17-------17-------17-------17-------17-----||
G|-----------|-----------------------------------------------------||
D|-----------|-----------------------------------------------------||
A|-----------|-----------------------------------------------------||
E|-----------|-----------------------------------------------------||


outro chorus's:

E|-----|-----|---------------------||
B|-----|-----|---------------------||
G|-----|-----|---------------------||
D|-7-7-|-5-5-|-3-x-3-x-3-x-3-x-3-5-||     x3
A|-7-7-|-5-5-|-3-x-3-x-3-x-3-x-3-5-||
E|-5-5-|-3-3-|-1-x-1-x-1-x-1-x-1-3-||

E|-----|-----|-------------------||
B|-----|-----|-------------------||
G|-----|-----|-------------------||
D|-7-7-|-5-5-|-------------------||    x4
A|-7-7-|-5-5-|--------3--5/7-5-3-||
E|-5-5-|-3-3-|-1-3/5-------------||

E|-----|-----|-----||
B|-----|-----|-----||
G|-----|-----|-----||
D|-7-7-|-5-5-|---3-||    x2
A|-7-7-|-5-5-|---3-||
E|-5-5-|-3-3-|-x-1-||


outro bends:

E|------------------------|---------------------------------------------------------|
B|-5---8----10---12---13--|-12---13---12---13---12---13-----15---13---12---15---12--|
G|-7^--10^--12^--14^--15^-|-14^--15^--14^--15^--14^--15^----17^--15^--14^--17^--14^-|
D|------------------------|---------------------------------------------------------|
A|------------------------|---------------------------------------------------------|
E|------------------------|---------------------------------------------------------|

any comments email me at guitar__master@hotmail.com                    

Comments for guitar tab — Stairway To Heaven (var.120) (Led Zeppelin)

Other Stairway To Heaven (var.120) by Led Zeppelin tabs:

Last viewed Led Zeppelin tabs: